  0
SECTION
  2
HEADER
  9
$ACADVER
  1
AC1015
  9
$ACADMAINTVER
 70
     6
  9
$DWGCODEPAGE
  3
ANSI_1254
  9
$INSBASE
 10
0.0
 20
0.0
 30
0.0
  9
$EXTMIN
 10
0.0
 20
0.0
 30
0.0
  9
$EXTMAX
 10
279.4
 20
215.9
 30
0.0
  9
$LIMMIN
 10
0.0
 20
0.0
  9
$LIMMAX
 10
279.4
 20
215.9
  9
$ORTHOMODE
 70
     0
  9
$REGENMODE
 70
     1
  9
$FILLMODE
 70
     1
  9
$QTEXTMODE
 70
     0
  9
$MIRRTEXT
 70
     1
  9
$LTSCALE
 40
1.0
  9
$ATTMODE
 70
     1
  9
$TEXTSIZE
 40
3.5
  9
$TRACEWID
 40
1.0
  9
$TEXTSTYLE
  7
Standard
  9
$CLAYER
  8
0
  9
$CELTYPE
  6
ByLayer
  9
$CECOLOR
 62
   256
  9
$CELTSCALE
 40
1.0
  9
$DISPSILH
 70
     0
  9
$DIMSCALE
 40
1.0
  9
$DIMASZ
 40
3.5
  9
$DIMEXO
 40
1.0
  9
$DIMDLI
 40
3.75
  9
$DIMRND
 40
0.0
  9
$DIMDLE
 40
0.0
  9
$DIMEXE
 40
1.0
  9
$DIMTP
 40
0.0
  9
$DIMTM
 40
0.0
  9
$DIMTXT
 40
3.5
  9
$DIMCEN
 40
2.5
  9
$DIMTSZ
 40
0.0
  9
$DIMTOL
 70
     0
  9
$DIMLIM
 70
     0
  9
$DIMTIH
 70
     1
  9
$DIMTOH
 70
     1
  9
$DIMSE1
 70
     0
  9
$DIMSE2
 70
     0
  9
$DIMTAD
 70
     1
  9
$DIMZIN
 70
     0
  9
$DIMBLK
  1

  9
$DIMASO
 70
     1
  9
$DIMSHO
 70
     1
  9
$DIMPOST
  1

  9
$DIMAPOST
  1

  9
$DIMALT
 70
     0
  9
$DIMALTD
 70
     3
  9
$DIMALTF
 40
0.0393700787
  9
$DIMLFAC
 40
1.0
  9
$DIMTOFL
 70
     1
  9
$DIMTVP
 40
0.0
  9
$DIMTIX
 70
     0
  9
$DIMSOXD
 70
     0
  9
$DIMSAH
 70
     0
  9
$DIMBLK1
  1

  9
$DIMBLK2
  1

  9
$DIMSTYLE
  2
ISO-25
  9
$DIMCLRD
 70
     0
  9
$DIMCLRE
 70
     0
  9
$DIMCLRT
 70
     0
  9
$DIMTFAC
 40
1.0
  9
$DIMGAP
 40
1.524
  9
$DIMJUST
 70
     0
  9
$DIMSD1
 70
     0
  9
$DIMSD2
 70
     0
  9
$DIMTOLJ
 70
     0
  9
$DIMTZIN
 70
     0
  9
$DIMALTZ
 70
     0
  9
$DIMALTTZ
 70
     0
  9
$DIMUPT
 70
     0
  9
$DIMDEC
 70
     2
  9
$DIMTDEC
 70
     2
  9
$DIMALTU
 70
     2
  9
$DIMALTTD
 70
     3
  9
$DIMTXSTY
  7
Standard
  9
$DIMAUNIT
 70
     0
  9
$DIMADEC
 70
     2
  9
$DIMALTRND
 40
0.0
  9
$DIMAZIN
 70
     0
  9
$DIMDSEP
 70
    44
  9
$DIMATFIT
 70
     3
  9
$DIMFRAC
 70
     0
  9
$DIMLDRBLK
  1

  9
$DIMLUNIT
 70
     2
  9
$DIMLWD
 70
    -2
  9
$DIMLWE
 70
    -2
  9
$DIMTMOVE
 70
     0
  9
$LUNITS
 70
     2
  9
$LUPREC
 70
     2
  9
$SKETCHINC
 40
1.0
  9
$FILLETRAD
 40
10.0
  9
$AUNITS
 70
     0
  9
$AUPREC
 70
     2
  9
$MENU
  1
.
  9
$ELEVATION
 40
0.0
  9
$PELEVATION
 40
0.0
  9
$THICKNESS
 40
0.0
  9
$LIMCHECK
 70
     0
  9
$CHAMFERA
 40
0.0
  9
$CHAMFERB
 40
0.0
  9
$CHAMFERC
 40
0.0
  9
$CHAMFERD
 40
0.0
  9
$SKPOLY
 70
     0
  9
$TDCREATE
 40
2459921.519883819
  9
$TDUCREATE
 40
2459921.394883819
  9
$TDUPDATE
 40
2459921.519884005
  9
$TDUUPDATE
 40
2459921.394884005
  9
$TDINDWG
 40
0.0000000116
  9
$TDUSRTIMER
 40
0.0000000116
  9
$USRTIMER
 70
     1
  9
$ANGBASE
 50
0.0
  9
$ANGDIR
 70
     0
  9
$PDMODE
 70
     0
  9
$PDSIZE
 40
-1.0
  9
$PLINEWID
 40
0.0
  9
$SPLFRAME
 70
     0
  9
$SPLINETYPE
 70
     6
  9
$SPLINESEGS
 70
     8
  9
$HANDSEED
  5
CC
  9
$SURFTAB1
 70
     6
  9
$SURFTAB2
 70
     6
  9
$SURFTYPE
 70
     6
  9
$SURFU
 70
     6
  9
$SURFV
 70
     6
  9
$UCSBASE
  2

  9
$UCSNAME
  2

  9
$UCSORG
 10
0.0
 20
0.0
 30
0.0
  9
$UCSXDIR
 10
1.0
 20
0.0
 30
0.0
  9
$UCSYDIR
 10
0.0
 20
1.0
 30
0.0
  9
$UCSORTHOREF
  2

  9
$UCSORTHOVIEW
 70
     0
  9
$UCSORGTOP
 10
0.0
 20
0.0
 30
0.0
  9
$UCSORGBOTTOM
 10
0.0
 20
0.0
 30
0.0
  9
$UCSORGLEFT
 10
0.0
 20
0.0
 30
0.0
  9
$UCSORGRIGHT
 10
0.0
 20
0.0
 30
0.0
  9
$UCSORGFRONT
 10
0.0
 20
0.0
 30
0.0
  9
$UCSORGBACK
 10
0.0
 20
0.0
 30
0.0
  9
$PUCSBASE
  2

  9
$PUCSNAME
  2

  9
$PUCSORG
 10
0.0
 20
0.0
 30
0.0
  9
$PUCSXDIR
 10
1.0
 20
0.0
 30
0.0
  9
$PUCSYDIR
 10
0.0
 20
1.0
 30
0.0
  9
$PUCSORTHOREF
  2

  9
$PUCSORTHOVIEW
 70
     0
  9
$PUCSORGTOP
 10
0.0
 20
0.0
 30
0.0
  9
$PUCSORGBOTTOM
 10
0.0
 20
0.0
 30
0.0
  9
$PUCSORGLEFT
 10
0.0
 20
0.0
 30
0.0
  9
$PUCSORGRIGHT
 10
0.0
 20
0.0
 30
0.0
  9
$PUCSORGFRONT
 10
0.0
 20
0.0
 30
0.0
  9
$PUCSORGBACK
 10
0.0
 20
0.0
 30
0.0
  9
$USERI1
 70
     0
  9
$USERI2
 70
     0
  9
$USERI3
 70
     0
  9
$USERI4
 70
     0
  9
$USERI5
 70
     0
  9
$USERR1
 40
0.0
  9
$USERR2
 40
0.0
  9
$USERR3
 40
0.0
  9
$USERR4
 40
0.0
  9
$USERR5
 40
0.0
  9
$WORLDVIEW
 70
     1
  9
$SHADEDGE
 70
     3
  9
$SHADEDIF
 70
    70
  9
$TILEMODE
 70
     1
  9
$MAXACTVP
 70
    64
  9
$PINSBASE
 10
0.0
 20
0.0
 30
0.0
  9
$PLIMCHECK
 70
     0
  9
$PEXTMIN
 10
1.0000000000E+20
 20
1.0000000000E+20
 30
1.0000000000E+20
  9
$PEXTMAX
 10
-1.0000000000E+20
 20
-1.0000000000E+20
 30
-1.0000000000E+20
  9
$PLIMMIN
 10
0.0
 20
0.0
  9
$PLIMMAX
 10
420.0
 20
297.0
  9
$UNITMODE
 70
     0
  9
$VISRETAIN
 70
     1
  9
$PLINEGEN
 70
     0
  9
$PSLTSCALE
 70
     1
  9
$TREEDEPTH
 70
  3020
  9
$CMLSTYLE
  2
Standard
  9
$CMLJUST
 70
     0
  9
$CMLSCALE
 40
20.0
  9
$PROXYGRAPHICS
 70
     1
  9
$MEASUREMENT
 70
     1
  9
$CELWEIGHT
370
    -1
  9
$ENDCAPS
280
     0
  9
$JOINSTYLE
280
     0
  9
$LWDISPLAY
290
     1
  9
$INSUNITS
 70
     4
  9
$HYPERLINKBASE
  1

  9
$STYLESHEET
  1

  9
$XEDIT
290
     1
  9
$CEPSNTYPE
380
     0
  9
$PSTYLEMODE
290
     1
  9
$FINGERPRINTGUID
  2
{cd1cc7d8-6e16-49a8-b597-edecc03b86b3}
  9
$VERSIONGUID
  2
{FAEB1C32-E019-11D5-929B-00C0DF256EC4}
  9
$EXTNAMES
290
     1
  9
$PSVPSCALE
 40
0.0
  9
$OLESTARTUP
290
     0
  0
ENDSEC
  0
SECTION
  2
CLASSES
  0
CLASS
  1
ACDBDICTIONARYWDFLT
  2
AcDbDictionaryWithDefault
  3
ObjectDBX Classes
 90
        0
280
     0
281
     0
  0
CLASS
  1
VISUALSTYLE
  2
AcDbVisualStyle
  3
ObjectDBX Classes
 90
     4095
280
     0
281
     0
  0
CLASS
  1
MATERIAL
  2
AcDbMaterial
  3
ObjectDBX Classes
 90
     1153
280
     0
281
     0
  0
CLASS
  1
SCALE
  2
AcDbScale
  3
ObjectDBX Classes
 90
     1153
280
     0
281
     0
  0
CLASS
  1
TABLESTYLE
  2
AcDbTableStyle
  3
ObjectDBX Classes
 90
     4095
280
     0
281
     0
  0
CLASS
  1
MLEADERSTYLE
  2
AcDbMLeaderStyle
  3
ACDB_MLEADERSTYLE_CLASS
 90
     4095
280
     0
281
     0
  0
CLASS
  1
SUN
  2
AcDbSun
  3
SCENEOE
 90
     1153
280
     0
281
     0
  0
CLASS
  1
ACDBPLACEHOLDER
  2
AcDbPlaceHolder
  3
ObjectDBX Classes
 90
        0
280
     0
281
     0
  0
CLASS
  1
LAYOUT
  2
AcDbLayout
  3
ObjectDBX Classes
 90
        0
280
     0
281
     0
  0
ENDSEC
  0
SECTION
  2
TABLES
  0
TABLE
  2
VPORT
  5
8
330
0
100
AcDbSymbolTable
 70
     1
  0
VPORT
  5
29
330
8
100
AcDbSymbolTableRecord
100
AcDbViewportTableRecord
  2
*Active
 70
     0
 10
0.0
 20
0.0
 11
1.0
 21
1.0
 12
139.7
 22
107.95
 13
0.0
 23
0.0
 14
10.0
 24
10.0
 15
10.0
 25
10.0
 16
0.0
 26
0.0
 36
1.0
 17
0.0
 27
0.0
 37
0.0
 40
215.9
 41
1.2941176471
 42
50.0
 43
0.0
 44
0.0
 50
0.0
 51
0.0
 71
     0
 72
  2000
 73
     1
 74
     3
 75
     0
 76
     0
 77
     0
 78
     0
281
     0
 65
     1
110
0.0
120
0.0
130
0.0
111
1.0
121
0.0
131
0.0
112
0.0
122
1.0
132
0.0
 79
     0
146
0.0
  0
ENDTAB
  0
TABLE
  2
LTYPE
  5
5
330
0
100
AcDbSymbolTable
 70
     6
  0
LTYPE
  5
14
330
5
100
AcDbSymbolTableRecord
100
AcDbLinetypeTableRecord
  2
ByBlock
 70
     0
  3

 72
    65
 73
     0
 40
0.0
  0
LTYPE
  5
15
330
5
100
AcDbSymbolTableRecord
100
AcDbLinetypeTableRecord
  2
ByLayer
 70
     0
  3

 72
    65
 73
     0
 40
0.0
  0
LTYPE
  5
16
330
5
100
AcDbSymbolTableRecord
100
AcDbLinetypeTableRecord
  2
Continuous
 70
     0
  3
Solid line
 72
    65
 73
     0
 40
0.0
  0
LTYPE
  5
6E
330
5
100
AcDbSymbolTableRecord
100
AcDbLinetypeTableRecord
  2
HIDDEN
 70
     0
  3
Hidden __ __ __ __ __ __ __ __ __ __ __ __ __ __
 72
    65
 73
     2
 40
1.905
 49
1.27
 74
     0
 49
-0.635
 74
     0
  0
LTYPE
  5
6F
330
5
100
AcDbSymbolTableRecord
100
AcDbLinetypeTableRecord
  2
PHANTOM
 70
     0
  3
Phantom ______  __  __  ______  __  __  ______
 72
    65
 73
     6
 40
12.7
 49
6.35
 74
     0
 49
-1.27
 74
     0
 49
1.27
 74
     0
 49
-1.27
 74
     0
 49
1.27
 74
     0
 49
-1.27
 74
     0
  0
LTYPE
  5
70
330
5
100
AcDbSymbolTableRecord
100
AcDbLinetypeTableRecord
  2
CENTER
 70
     0
  3
Center ____ _ ____ _ ____ _ ____ _ ____ _ ____
 72
    65
 73
     4
 40
10.16
 49
6.35
 74
     0
 49
-1.27
 74
     0
 49
1.27
 74
     0
 49
-1.27
 74
     0
  0
LTYPE
  5
71
330
5
100
AcDbSymbolTableRecord
100
AcDbLinetypeTableRecord
  2
CENTERX2
 70
     0
  3
Center (2x) ________  __  ________  __  _____
 72
    65
 73
     4
 40
20.32
 49
12.7
 74
     0
 49
-2.54
 74
     0
 49
2.54
 74
     0
 49
-2.54
 74
     0
  0
LTYPE
  5
72
330
5
100
AcDbSymbolTableRecord
100
AcDbLinetypeTableRecord
  2
DOT2
 70
     0
  3
Dot (.5x) ........................................
 72
    65
 73
     2
 40
0.635
 49
0.0
 74
     0
 49
-0.635
 74
     0
  0
ENDTAB
  0
TABLE
  2
LAYER
  5
2
330
0
100
AcDbSymbolTable
 70
    17
  0
LAYER
  5
10
330
2
100
AcDbSymbolTableRecord
100
AcDbLayerTableRecord
  2
0
 70
     0
 62
     7
  6
Continuous
370
    -3
390
F
  0
LAYER
  5
73
330
2
100
AcDbSymbolTableRecord
100
AcDbLayerTableRecord
  2
FORMAT
 70
     0
 62
     7
  6
Continuous
370
    -3
390
F
  0
LAYER
  5
74
330
2
100
AcDbSymbolTableRecord
100
AcDbLayerTableRecord
  2
YARDIMCI_GEOMETRI
 70
     0
 62
    -6
  6
Continuous
290
     0
370
    -3
390
F
  0
LAYER
  5
75
330
2
100
AcDbSymbolTableRecord
100
AcDbLayerTableRecord
  2
SAYFA_CERCEVESI
 70
     0
 62
     7
  6
Continuous
370
    25
390
F
  0
LAYER
  5
76
330
2
100
AcDbSymbolTableRecord
100
AcDbLayerTableRecord
  2
ANTET
 70
     0
 62
     7
  6
Continuous
370
    -3
390
F
  0
LAYER
  5
77
330
2
100
AcDbSymbolTableRecord
100
AcDbLayerTableRecord
  2
OLCU
 70
     0
 62
   150
  6
Continuous
370
    -3
390
F
  0
LAYER
  5
78
330
2
100
AcDbSymbolTableRecord
100
AcDbLayerTableRecord
  2
METIN
 70
     0
 62
    96
  6
Continuous
370
    -3
390
F
  0
LAYER
  5
79
330
2
100
AcDbSymbolTableRecord
100
AcDbLayerTableRecord
  2
BALON
 70
     0
 62
     5
  6
Continuous
370
    -3
390
F
  0
LAYER
  5
7A
330
2
100
AcDbSymbolTableRecord
100
AcDbLayerTableRecord
  2
VURGU
 70
     0
 62
     7
  6
Continuous
370
    -3
390
F
  0
LAYER
  5
7B
330
2
100
AcDbSymbolTableRecord
100
AcDbLayerTableRecord
  2
SILIK
 70
     0
 62
     7
  6
Continuous
370
    -3
390
F
  0
LAYER
  5
7C
330
2
100
AcDbSymbolTableRecord
100
AcDbLayerTableRecord
  2
MODEL
 70
     0
 62
     7
  6
Continuous
370
    -3
390
F
  0
LAYER
  5
7D
330
2
100
AcDbSymbolTableRecord
100
AcDbLayerTableRecord
  2
DETAYLANDıRMA
 70
     0
 62
   190
  6
Continuous
370
    -3
390
F
  0
LAYER
  5
7E
330
2
100
AcDbSymbolTableRecord
100
AcDbLayerTableRecord
  2
TOLERANS
 70
     0
 62
   230
  6
Continuous
370
    -3
390
F
  0
LAYER
  5
7F
330
2
100
AcDbSymbolTableRecord
100
AcDbLayerTableRecord
  2
MERKEZ_CIZGILERI
 70
     0
 62
    30
  6
Continuous
370
    -3
390
F
  0
LAYER
  5
80
330
2
100
AcDbSymbolTableRecord
100
AcDbLayerTableRecord
  2
KESIT-DETAY_CIZGILERI
 70
     0
 62
     7
  6
Continuous
370
    -3
390
F
  0
LAYER
  5
81
330
2
100
AcDbSymbolTableRecord
100
AcDbLayerTableRecord
  2
\U+041E\U+0421\U+0415\U+0412\U+042B\U+0415
 70
     0
 62
     7
  6
Continuous
370
    -3
390
F
  0
LAYER
  5
82
330
2
100
AcDbSymbolTableRecord
100
AcDbLayerTableRecord
  2
\U+0412\U+041E\U+0414\U+042F\U+041D\U+042B\U+0415_\U+0417\U+041D\U+0410\U+041A\U+0418
 70
     0
 62
    11
  6
Continuous
370
    -3
390
F
  0
ENDTAB
  0
TABLE
  2
STYLE
  5
3
330
0
100
AcDbSymbolTable
 70
     1
  0
STYLE
  5
11
330
3
100
AcDbSymbolTableRecord
100
AcDbTextStyleTableRecord
  2
Standard
 70
     0
 40
0.0
 41
1.0
 50
0.0
 71
     0
 42
3.5
  3
txt
  4

  0
ENDTAB
  0
TABLE
  2
VIEW
  5
6
330
0
100
AcDbSymbolTable
 70
     0
  0
ENDTAB
  0
TABLE
  2
UCS
  5
7
330
0
100
AcDbSymbolTable
 70
     0
  0
ENDTAB
  0
TABLE
  2
APPID
  5
9
330
0
100
AcDbSymbolTable
 70
     1
  0
APPID
  5
12
330
9
100
AcDbSymbolTableRecord
100
AcDbRegAppTableRecord
  2
ACAD
 70
     0
  0
ENDTAB
  0
TABLE
  2
DIMSTYLE
  5
A
330
0
100
AcDbSymbolTable
 70
     1
100
AcDbDimStyleTable
  0
DIMSTYLE
105
27
330
A
100
AcDbSymbolTableRecord
100
AcDbDimStyleTableRecord
  2
ISO-25
 70
     0
 41
2.5
 42
0.625
 43
3.75
 44
1.25
 73
     0
 74
     0
 77
     1
 78
     8
140
2.5
141
2.5
143
0.0393700787
147
0.625
171
     3
172
     1
178
     0
271
     2
272
     2
274
     3
278
    44
283
     0
284
     8
340
11
  0
ENDTAB
  0
TABLE
  2
BLOCK_RECORD
  5
1
330
0
100
AcDbSymbolTable
 70
     3
  0
BLOCK_RECORD
  5
1F
330
1
100
AcDbSymbolTableRecord
100
AcDbBlockTableRecord
  2
*Model_Space
340
22
  0
BLOCK_RECORD
  5
1B
330
1
100
AcDbSymbolTableRecord
100
AcDbBlockTableRecord
  2
*Paper_Space
340
1E
  0
BLOCK_RECORD
  5
23
330
1
100
AcDbSymbolTableRecord
100
AcDbBlockTableRecord
  2
*Paper_Space0
340
26
  0
BLOCK_RECORD
  5
88
330
1
100
AcDbSymbolTableRecord
100
AcDbBlockTableRecord
  2
SW_CENTERMARKSYMBOL_0
340
0
102
{BLKREFS
331
93
102
}
  0
BLOCK_RECORD
  5
B2
330
1
100
AcDbSymbolTableRecord
100
AcDbBlockTableRecord
  2
SW_CENTERMARKSYMBOL_1
340
0
102
{BLKREFS
331
BD
102
}
  0
ENDTAB
  0
ENDSEC
  0
SECTION
  2
BLOCKS
  0
BLOCK
  5
20
330
1F
100
AcDbEntity
  8
0
100
AcDbBlockBegin
  2
*Model_Space
 70
     0
 10
0.0
 20
0.0
 30
0.0
  3
*Model_Space
  1

  0
ENDBLK
  5
21
330
1F
100
AcDbEntity
  8
0
100
AcDbBlockEnd
  0
BLOCK
  5
1C
330
1B
100
AcDbEntity
 67
     1
  8
0
100
AcDbBlockBegin
  2
*Paper_Space
 70
     0
 10
0.0
 20
0.0
 30
0.0
  3
*Paper_Space
  1

  0
ENDBLK
  5
1D
330
1B
100
AcDbEntity
 67
     1
  8
0
100
AcDbBlockEnd
  0
BLOCK
  5
24
330
23
100
AcDbEntity
  8
0
100
AcDbBlockBegin
  2
*Paper_Space0
 70
     0
 10
0.0
 20
0.0
 30
0.0
  3
*Paper_Space0
  1

  0
ENDBLK
  5
25
330
23
100
AcDbEntity
  8
0
100
AcDbBlockEnd
  0
BLOCK
  5
89
330
88
100
AcDbEntity
  8
0
100
AcDbBlockBegin
  2
SW_CENTERMARKSYMBOL_0
 70
     0
 10
0.0
 20
0.0
 30
0.0
  3
SW_CENTERMARKSYMBOL_0
  1

  0
LINE
  5
8B
330
88
100
AcDbEntity
  8
FORMAT
 62
     0
100
AcDbLine
 10
0.0
 20
0.0
 30
0.0
 11
0.0
 21
2.5
 31
0.0
  0
LINE
  5
8C
330
88
100
AcDbEntity
  8
FORMAT
 62
     0
100
AcDbLine
 10
0.0
 20
0.0
 30
0.0
 11
-2.5
 21
0.0
 31
0.0
  0
LINE
  5
8D
330
88
100
AcDbEntity
  8
FORMAT
 62
     0
100
AcDbLine
 10
0.0
 20
0.0
 30
0.0
 11
0.0
 21
-2.5
 31
0.0
  0
LINE
  5
8E
330
88
100
AcDbEntity
  8
FORMAT
 62
     0
100
AcDbLine
 10
0.0
 20
0.0
 30
0.0
 11
2.5
 21
0.0
 31
0.0
  0
LINE
  5
8F
330
88
100
AcDbEntity
  8
FORMAT
 62
     0
100
AcDbLine
 10
0.0
 20
5.0
 30
0.0
 11
0.0
 21
180.0
 31
0.0
  0
LINE
  5
90
330
88
100
AcDbEntity
  8
FORMAT
 62
     0
100
AcDbLine
 10
-5.0
 20
0.0
 30
0.0
 11
-180.0
 21
0.0
 31
0.0
  0
LINE
  5
91
330
88
100
AcDbEntity
  8
FORMAT
 62
     0
100
AcDbLine
 10
0.0
 20
-5.0
 30
0.0
 11
0.0
 21
-180.0
 31
0.0
  0
LINE
  5
92
330
88
100
AcDbEntity
  8
FORMAT
 62
     0
100
AcDbLine
 10
5.0
 20
0.0
 30
0.0
 11
180.0
 21
0.0
 31
0.0
  0
ENDBLK
  5
8A
330
88
100
AcDbEntity
  8
0
100
AcDbBlockEnd
  0
BLOCK
  5
B3
330
B2
100
AcDbEntity
  8
0
100
AcDbBlockBegin
  2
SW_CENTERMARKSYMBOL_1
 70
     0
 10
0.0
 20
0.0
 30
0.0
  3
SW_CENTERMARKSYMBOL_1
  1

  0
LINE
  5
B5
330
B2
100
AcDbEntity
  8
FORMAT
 62
     0
100
AcDbLine
 10
0.0
 20
0.0
 30
0.0
 11
0.0
 21
2.5
 31
0.0
  0
LINE
  5
B6
330
B2
100
AcDbEntity
  8
FORMAT
 62
     0
100
AcDbLine
 10
0.0
 20
0.0
 30
0.0
 11
-2.5
 21
0.0
 31
0.0
  0
LINE
  5
B7
330
B2
100
AcDbEntity
  8
FORMAT
 62
     0
100
AcDbLine
 10
0.0
 20
0.0
 30
0.0
 11
0.0
 21
-2.5
 31
0.0
  0
LINE
  5
B8
330
B2
100
AcDbEntity
  8
FORMAT
 62
     0
100
AcDbLine
 10
0.0
 20
0.0
 30
0.0
 11
2.5
 21
0.0
 31
0.0
  0
LINE
  5
B9
330
B2
100
AcDbEntity
  8
FORMAT
 62
     0
100
AcDbLine
 10
0.0
 20
5.0
 30
0.0
 11
0.0
 21
82.5
 31
0.0
  0
LINE
  5
BA
330
B2
100
AcDbEntity
  8
FORMAT
 62
     0
100
AcDbLine
 10
-5.0
 20
0.0
 30
0.0
 11
-82.5
 21
0.0
 31
0.0
  0
LINE
  5
BB
330
B2
100
AcDbEntity
  8
FORMAT
 62
     0
100
AcDbLine
 10
0.0
 20
-5.0
 30
0.0
 11
0.0
 21
-82.5
 31
0.0
  0
LINE
  5
BC
330
B2
100
AcDbEntity
  8
FORMAT
 62
     0
100
AcDbLine
 10
5.0
 20
0.0
 30
0.0
 11
82.5
 21
0.0
 31
0.0
  0
ENDBLK
  5
B4
330
B2
100
AcDbEntity
  8
0
100
AcDbBlockEnd
  0
ENDSEC
  0
SECTION
  2
ENTITIES
  0
LINE
  5
83
330
1F
100
AcDbEntity
  8
0
  6
Continuous
 62
     7
370
    25
100
AcDbLine
 10
7.7138002183
 20
27.8543903992
 30
0.0
 11
165.2016690558
 21
27.8543903992
 31
0.0
  0
LINE
  5
84
330
1F
100
AcDbEntity
  8
0
  6
Continuous
 62
     7
370
    25
100
AcDbLine
 10
165.2016690558
 20
187.8543903992
 30
0.0
 11
7.7096500143
 21
187.8543903992
 31
0.0
  0
CIRCLE
  5
85
330
1F
100
AcDbEntity
  8
0
  6
Continuous
 62
     7
370
    25
100
AcDbCircle
 10
-150.7983309442
 20
107.8543903992
 30
0.0
 40
145.3
  0
CIRCLE
  5
86
330
1F
100
AcDbEntity
  8
0
  6
Continuous
 62
     7
370
    25
100
AcDbCircle
 10
-150.7983309442
 20
107.8543903992
 30
0.0
 40
177.5
  0
LINE
  5
87
330
1F
100
AcDbEntity
  8
0
  6
Continuous
 62
     7
370
    25
100
AcDbLine
 10
165.2016690558
 20
187.8543903992
 30
0.0
 11
165.2016690558
 21
27.8543903992
 31
0.0
  0
INSERT
  5
93
330
1F
100
AcDbEntity
  8
FORMAT
100
AcDbBlockReference
  2
SW_CENTERMARKSYMBOL_0
 10
-150.7983309442
 20
107.8543903992
 30
0.0
  0
LINE
  5
94
330
1F
100
AcDbEntity
  8
0
  6
Continuous
 62
     7
370
    25
100
AcDbLine
 10
-328.2983309442
 20
-412.1764749858
 30
0.0
 11
-328.2983309442
 21
-987.1764749858
 31
0.0
  0
LINE
  5
95
330
1F
100
AcDbEntity
  8
0
  6
Continuous
 62
     7
370
    25
100
AcDbLine
 10
26.7016690558
 20
-619.7444901542
 30
0.0
 11
26.7016690558
 21
-412.1764749858
 31
0.0
  0
LINE
  5
96
330
1F
100
AcDbEntity
  8
0
  6
Continuous
 62
     7
370
    25
100
AcDbLine
 10
26.7016690558
 20
-987.1764749858
 30
0.0
 11
26.7016690558
 21
-779.6764749858
 31
0.0
  0
LINE
  5
97
330
1F
100
AcDbEntity
  8
0
  6
Continuous
 62
     7
370
    25
100
AcDbLine
 10
26.7016690558
 20
-779.6764749858
 30
0.0
 11
165.2016690558
 21
-779.6764749858
 31
0.0
  0
LINE
  5
98
330
1F
100
AcDbEntity
  8
0
  6
Continuous
 62
     7
370
    25
100
AcDbLine
 10
165.2016690558
 20
-619.6764749858
 30
0.0
 11
26.6710247842
 21
-619.6764749858
 31
0.0
  0
SPLINE
  5
99
330
1F
100
AcDbEntity
  8
0
  6
Continuous
 62
     7
370
    25
100
AcDbSpline
210
0.0
220
0.0
230
1.0
 70
     8
 71
     3
 72
    46
 73
    42
 74
     0
 42
0.00000001
 43
0.00000001
 40
0.0
 40
0.0
 40
0.0
 40
0.0
 40
0.012584984935604
 40
0.038915659143566
 40
0.0627511015340605
 40
0.0869131610596706
 40
0.1112382250971222
 40
0.1358918693087132
 40
0.1605124384010437
 40
0.1854397544087598
 40
0.210518887129808
 40
0.2359048324446134
 40
0.2625336996304004
 40
0.2895204462451524
 40
0.316689584223791
 40
0.3442380866824448
 40
0.371440156455913
 40
0.3988540556524648
 40
0.4269765517430684
 40
0.4553631125052646
 40
0.4802146237355656
 40
0.5054703230088424
 40
0.5309335543343923
 40
0.5568207134054358
 40
0.5801903728430478
 40
0.6038634311595267
 40
0.6276861822818977
 40
0.6518086758186483
 40
0.6767226252445707
 40
0.7019403892797739
 40
0.7273089687220226
 40
0.7529842763552089
 40
0.7801017330782434
 40
0.8074052968130544
 40
0.8353112086638058
 40
0.8634348003915463
 40
0.890177109635264
 40
0.9173615927689158
 40
0.94477745754423
 40
0.972677435847789
 40
1.0
 40
1.0
 40
1.0
 40
1.0
 10
26.6710247510942
 20
-619.7444901541647
 30
0.0
 10
26.67720083212494
 20
-619.7307789241415
 30
0.0
 10
26.69629869084014
 20
-619.6883806569404
 30
0.0
 10
26.46735082197896
 20
-620.1966518856602
 30
0.0
 10
26.02302560462017
 20
-621.1913532506272
 30
0.0
 10
25.38412859079892
 20
-622.6390743566292
 30
0.0
 10
24.55753811055372
 20
-624.5455195579442
 30
0.0
 10
23.55779409051589
 20
-626.90533515978
 30
0.0
 10
22.40407390180496
 20
-629.7097185930755
 30
0.0
 10
21.12225331782575
 20
-632.939763416867
 30
0.0
 10
19.73272182460548
 20
-636.5981484285777
 30
0.0
 10
18.24624466805108
 20
-640.7241615536949
 30
0.0
 10
16.68933646405607
 20
-645.3352296136298
 30
0.0
 10
15.10267853181557
 20
-650.4278205405234
 30
0.0
 10
13.54688827098108
 20
-655.9366931180399
 30
0.0
 10
12.08162744165514
 20
-661.7938951141981
 30
0.0
 10
10.75296121796182
 20
-667.9705051477313
 30
0.0
 10
9.600989661099957
 20
-674.4562205793367
 30
0.0
 10
8.667294895051302
 20
-681.2635061352781
 30
0.0
 10
8.031186730990624
 20
-688.0348279151034
 30
0.0
 10
7.687678554164163
 20
-694.6654111764916
 30
0.0
 10
7.613435007994996
 20
-701.0899467118683
 30
0.0
 10
7.804245338939891
 20
-707.5908599553876
 30
0.0
 10
8.246063056344955
 20
-713.8682720884802
 30
0.0
 10
8.900939380003054
 20
-719.8879280700339
 30
0.0
 10
9.725809702464671
 20
-725.6027547083585
 30
0.0
 10
10.72774601084975
 20
-731.2080259666931
 30
0.0
 10
11.89184068578616
 20
-736.7060655205895
 30
0.0
 10
13.19761098215447
 20
-742.0692799058248
 30
0.0
 10
14.61450387036914
 20
-747.2471317106169
 30
0.0
 10
16.10051842486027
 20
-752.1726066830392
 30
0.0
 10
17.64317020371056
 20
-756.8823214603684
 30
0.0
 10
19.20600636371392
 20
-761.3255811194217
 30
0.0
 10
20.75103477078302
 20
-765.4588007461144
 30
0.0
 10
22.21012861934704
 20
-769.1679491328135
 30
0.0
 10
23.51304013869968
 20
-772.3434128786937
 30
0.0
 10
24.62510519740785
 20
-774.9665478124919
 30
0.0
 10
25.52409984870593
 20
-777.0340667607948
 30
0.0
 10
26.19330263263517
 20
-778.5446730505028
 30
0.0
 10
26.6219270214062
 20
-779.4998106415329
 30
0.0
 10
26.67527431312566
 20
-779.6179988013477
 30
0.0
 10
26.70166905584359
 20
-779.6764749857998
 30
0.0
  0
LINE
  5
9A
330
1F
100
AcDbEntity
  8
0
  6
Continuous
 62
     7
370
    25
100
AcDbLine
 10
26.7016690558
 20
-987.1764749858
 30
0.0
 11
-328.2983309442
 21
-987.1764749858
 31
0.0
  0
LINE
  5
9B
330
1F
100
AcDbEntity
  8
0
  6
Continuous
 62
     7
370
    25
100
AcDbLine
 10
26.7016690558
 20
-412.1764749858
 30
0.0
 11
-328.2983309442
 21
-412.1764749858
 31
0.0
  0
LINE
  5
9C
330
1F
100
AcDbEntity
  8
0
  6
Continuous
 62
     7
370
    25
100
AcDbLine
 10
165.2016690558
 20
-619.6764749858
 30
0.0
 11
165.2016690558
 21
-779.6764749858
 31
0.0
  0
LINE
  5
9D
330
1F
100
AcDbEntity
  8
0
  6
Continuous
 62
     7
370
    25
100
AcDbLine
 10
26.7016690558
 20
979.4244808616
 30
0.0
 11
26.7016690558
 21
1186.9244808616
 31
0.0
  0
LINE
  5
9E
330
1F
100
AcDbEntity
  8
0
  6
Continuous
 62
     7
370
    25
100
AcDbLine
 10
26.7016690558
 20
611.9244808616
 30
0.0
 11
26.7016690558
 21
819.4945211299
 31
0.0
  0
LINE
  5
9F
330
1F
100
AcDbEntity
  8
0
  6
Continuous
 62
     7
370
    25
100
AcDbLine
 10
-328.2983309442
 20
1186.9244808616
 30
0.0
 11
-328.2983309442
 21
611.9244808616
 31
0.0
  0
LINE
  5
A0
330
1F
100
AcDbEntity
  8
0
  6
Continuous
 62
     7
370
    25
100
AcDbLine
 10
26.6700234977
 20
819.4244808616
 30
0.0
 11
165.2016690558
 21
819.4244808616
 31
0.0
  0
LINE
  5
A1
330
1F
100
AcDbEntity
  8
0
  6
Continuous
 62
     7
370
    25
100
AcDbLine
 10
165.2016690558
 20
979.4244808616
 30
0.0
 11
26.7016690558
 21
979.4244808616
 31
0.0
  0
SPLINE
  5
A2
330
1F
100
AcDbEntity
  8
0
  6
Continuous
 62
     7
370
    25
100
AcDbSpline
210
0.0
220
0.0
230
1.0
 70
     8
 71
     3
 72
    46
 73
    42
 74
     0
 42
0.00000001
 43
0.00000001
 40
0.0
 40
0.0
 40
0.0
 40
0.0
 40
0.0247086470207513
 40
0.0494176670094102
 40
0.0748840579090906
 40
0.100351533649928
 40
0.1250468763546873
 40
0.1497433732943501
 40
0.1750898435898235
 40
0.2004373613429546
 40
0.2264265952576635
 40
0.2524163506857371
 40
0.2790774440632495
 40
0.3057381506664308
 40
0.3332009857388268
 40
0.3606622487915851
 40
0.3890114696966674
 40
0.4173581278605581
 40
0.4432959320666116
 40
0.4692323174918131
 40
0.4960859814785795
 40
0.522939514314676
 40
0.546549599680364
 40
0.5701605287575136
 40
0.5944296005455054
 40
0.6187000548107187
 40
0.6428965343563795
 40
0.6670942030200706
 40
0.6918723028406001
 40
0.7166511101858403
 40
0.7432503811037324
 40
0.7698496128793447
 40
0.7971735109399279
 40
0.8244963719332052
 40
0.8518403169020209
 40
0.8791826091469089
 40
0.907445236299024
 40
0.9357060202906226
 40
0.961090440577506
 40
0.9864742258536898
 40
1.0
 40
1.0
 40
1.0
 40
1.0
 10
26.70166905584356
 20
979.4244808615875
 30
0.0
 10
26.67990929577557
 20
979.3764297952531
 30
0.0
 10
26.63638944718405
 20
979.2803269372711
 30
0.0
 10
26.28827719169607
 20
978.5044378058063
 30
0.0
 10
25.73093565169487
 20
977.2513774431862
 30
0.0
 10
24.96277811936609
 20
975.4951489785473
 30
0.0
 10
24.01827893389602
 20
973.2907243211561
 30
0.0
 10
22.91815649101111
 20
970.6523312923212
 30
0.0
 10
21.67143680920114
 20
967.5619038753191
 30
0.0
 10
20.29402973588845
 20
964.0030821446069
 30
0.0
 10
18.82405382231653
 20
960.0106510799815
 30
0.0
 10
17.28284483625358
 20
955.5621850295564
 30
0.0
 10
15.71825573526986
 20
950.7009191537999
 30
0.0
 10
14.15580938583111
 20
945.3915457687282
 30
0.0
 10
12.65352360754207
 20
939.6874205797404
 30
0.0
 10
11.24389114818947
 20
933.5458537851407
 30
0.0
 10
9.996241100682813
 20
927.0447375117035
 30
0.0
 10
8.989821935223102
 20
920.4155552334213
 30
0.0
 10
8.259201894878942
 20
913.7985738409179
 30
0.0
 10
7.793460998491764
 20
907.1844848363231
 30
0.0
 10
7.606315359332594
 20
900.4232188754064
 30
0.0
 10
7.705366659201629
 20
893.8505037690667
 30
0.0
 10
8.055679312328728
 20
887.6009374557949
 30
0.0
 10
8.608244427154437
 20
881.6518212858764
 30
0.0
 10
9.372434677487718
 20
875.7725592930859
 30
0.0
 10
10.32624865859269
 20
870.0083990497665
 30
0.0
 10
11.43732883194867
 20
864.4461397570369
 30
0.0
 10
12.68286896288326
 20
859.0683899782938
 30
0.0
 10
14.03693427559069
 20
853.9023095729443
 30
0.0
 10
15.50251516909118
 20
848.856011446086
 30
0.0
 10
17.03847238143747
 20
844.0199232497387
 30
0.0
 10
18.62132221358265
 20
839.4036599239192
 30
0.0
 10
20.17326676331263
 20
835.1611891288828
 30
0.0
 10
21.65335970197102
 20
831.3294427847268
 30
0.0
 10
23.00581094642073
 20
827.9797547906384
 30
0.0
 10
24.21020850832822
 20
825.1038583161044
 30
0.0
 10
25.21958675716912
 20
822.7607419288973
 30
0.0
 10
25.97724568792539
 20
821.0422178168833
 30
0.0
 10
26.45584564181086
 20
819.969670769449
 30
0.0
 10
26.69269670088536
 20
819.4445504580024
 30
0.0
 10
26.67587205814143
 20
819.4816311190219
 30
0.0
 10
26.67002346151828
 20
819.4945211299496
 30
0.0
  0
LINE
  5
A3
330
1F
100
AcDbEntity
  8
0
  6
Continuous
 62
     7
370
    25
100
AcDbLine
 10
-328.2983309442
 20
1186.9244808616
 30
0.0
 11
26.7016690558
 21
1186.9244808616
 31
0.0
  0
LINE
  5
A4
330
1F
100
AcDbEntity
  8
0
  6
Continuous
 62
     7
370
    25
100
AcDbLine
 10
-328.2983309442
 20
611.9244808616
 30
0.0
 11
26.7016690558
 21
611.9244808616
 31
0.0
  0
LINE
  5
A5
330
1F
100
AcDbEntity
  8
0
  6
Continuous
 62
     7
370
    25
100
AcDbLine
 10
165.2016690558
 20
979.4244808616
 30
0.0
 11
165.2016690558
 21
819.4244808616
 31
0.0
  0
LINE
  5
A6
330
1F
100
AcDbEntity
  8
0
  6
Continuous
 62
     7
370
    25
100
AcDbLine
 10
1137.7332411471
 20
-69.6456096008
 30
0.0
 11
1712.7332411471
 21
-69.6456096008
 31
0.0
  0
LINE
  5
A7
330
1F
100
AcDbEntity
  8
0
  6
Continuous
 62
     7
370
    25
100
AcDbLine
 10
1712.7332411471
 20
285.3543903992
 30
0.0
 11
1137.7332411471
 21
285.3543903992
 31
0.0
  0
LINE
  5
A8
330
1F
100
AcDbEntity
  8
0
  6
Continuous
 62
     7
370
    25
100
AcDbLine
 10
1712.7332411471
 20
285.3543903992
 30
0.0
 11
1712.7332411471
 21
-69.6456096008
 31
0.0
  0
LINE
  5
A9
330
1F
100
AcDbEntity
  8
0
  6
Continuous
 62
     7
370
    25
100
AcDbLine
 10
1137.7332411471
 20
285.3543903992
 30
0.0
 11
1137.7332411471
 21
-69.6456096008
 31
0.0
  0
LINE
  5
AA
330
1F
100
AcDbEntity
  8
0
  6
Continuous
 62
     7
370
    25
100
AcDbLine
 10
-713.0845400695
 20
285.3543903992
 30
0.0
 11
-1288.0845400695
 21
285.3543903992
 31
0.0
  0
LINE
  5
AB
330
1F
100
AcDbEntity
  8
0
  6
Continuous
 62
     7
370
    25
100
AcDbLine
 10
-1288.0845400695
 20
-69.6456096008
 30
0.0
 11
-713.0845400695
 21
-69.6456096008
 31
0.0
  0
CIRCLE
  5
AC
330
1F
100
AcDbEntity
  8
0
  6
Continuous
 62
     7
370
    25
100
AcDbCircle
 10
-1000.5845400695
 20
107.8543903992
 30
0.0
 40
65.39999999999986
  0
CIRCLE
  5
AD
330
1F
100
AcDbEntity
  8
0
  6
Continuous
 62
     7
370
    25
100
AcDbCircle
 10
-1000.5845400695
 20
107.8543903992
 30
0.0
 40
79.99999999999989
  0
LINE
  5
AE
330
1F
100
AcDbEntity
  8
0
  6
Continuous
 62
     7
370
    25
100
AcDbLine
 10
-1288.0845400695
 20
107.8543903992
 30
0.0
 11
-1288.0845400695
 21
285.3543903992
 31
0.0
  0
LINE
  5
AF
330
1F
100
AcDbEntity
  8
0
  6
Continuous
 62
     7
370
    25
100
AcDbLine
 10
-1288.0845400695
 20
-69.6456096008
 30
0.0
 11
-1288.0845400695
 21
107.8543903992
 31
0.0
  0
LINE
  5
B0
330
1F
100
AcDbEntity
  8
0
  6
Continuous
 62
     7
370
    25
100
AcDbLine
 10
-713.0845400695
 20
107.8543903992
 30
0.0
 11
-713.0845400695
 21
285.3543903992
 31
0.0
  0
LINE
  5
B1
330
1F
100
AcDbEntity
  8
0
  6
Continuous
 62
     7
370
    25
100
AcDbLine
 10
-713.0845400695
 20
-69.6456096008
 30
0.0
 11
-713.0845400695
 21
107.8543903992
 31
0.0
  0
INSERT
  5
BD
330
1F
100
AcDbEntity
  8
FORMAT
100
AcDbBlockReference
  2
SW_CENTERMARKSYMBOL_1
 10
-1000.5845400695
 20
107.8543903992
 30
0.0
  0
LINE
  5
BE
330
1F
100
AcDbEntity
  8
0
  6
Continuous
 62
     7
370
    25
100
AcDbLine
 10
1549.5294524634
 20
-747.3307625542
 30
0.0
 11
1515.0143933978
 21
-727.4056430737
 31
0.0
  0
LINE
  5
BF
330
1F
100
AcDbEntity
  8
0
  6
Continuous
 62
     7
370
    25
100
AcDbLine
 10
1355.0013895628
 20
-635.0321021858
 30
0.0
 11
1142.9430532811
 21
-512.6134304051
 31
0.0
  0
LINE
  5
C0
330
1F
100
AcDbEntity
  8
0
  6
Continuous
 62
     7
370
    25
100
AcDbLine
 10
965.4574782382
 20
-820.0607765503
 30
0.0
 11
1372.0438774205
 21
-1054.7781086993
 31
0.0
  0
LINE
  5
C1
330
1F
100
AcDbEntity
  8
0
  6
Continuous
 62
     7
370
    25
100
AcDbLine
 10
1416.4544887011
 20
-784.3030649594
 30
0.0
 11
1520.9359575112
 21
-723.9871968747
 31
0.0
  0
LINE
  5
C2
330
1F
100
AcDbEntity
  8
0
  6
Continuous
 62
     7
370
    25
100
AcDbLine
 10
1440.9424589003
 20
-585.4193788938
 30
0.0
 11
1336.4624467766
 21
-645.7344060514
 31
0.0
  0
SPLINE
  5
C3
330
1F
100
AcDbEntity
  8
0
  6
Continuous
 62
     7
370
    25
100
AcDbSpline
210
0.0
220
0.0
230
1.0
 70
     8
 71
     3
 72
    37
 73
    33
 74
     0
 42
0.00000001
 43
0.00000001
 40
0.0
 40
0.0
 40
0.0
 40
0.0
 40
0.0330657223928326
 40
0.0661319515294323
 40
0.0996991261826746
 40
0.1337767937811828
 40
0.1668070473231128
 40
0.199838859966802
 40
0.233302470174026
 40
0.2671992429907125
 40
0.3017370873445379
 40
0.3367162879247338
 40
0.3719172186319183
 40
0.4075737653462301
 40
0.4440495301375458
 40
0.4807921167141316
 40
0.5184183202138886
 40
0.5563725688874755
 40
0.590808683024822
 40
0.6258310798543842
 40
0.6611594934455873
 40
0.6971217912081988
 40
0.7287066019509512
 40
0.7602925548276491
 40
0.7925344392647057
 40
0.8247781419492418
 40
0.8571316051821755
 40
0.8894866719675923
 40
0.9224201815237282
 40
0.9553546218263197
 40
0.9906993330338131
 40
1.0
 40
1.0
 40
1.0
 40
1.0
 10
1326.43637651649
 20
-678.5832251550501
 30
0.0
 10
1326.455105952266
 20
-680.3324791601165
 30
0.0
 10
1326.492565110854
 20
-683.8310139781787
 30
0.0
 10
1326.795915329202
 20
-689.4402903821522
 30
0.0
 10
1327.287389956943
 20
-695.301429808836
 30
0.0
 10
1327.984924511599
 20
-701.3363289653279
 30
0.0
 10
1328.879171799842
 20
-707.456555827953
 30
0.0
 10
1329.96679576637
 20
-713.6099470576913
 30
0.0
 10
1331.2692303387
 20
-719.8439684819991
 30
0.0
 10
1332.806682544813
 20
-726.1545337846588
 30
0.0
 10
1334.595423117775
 20
-732.496941211087
 30
0.0
 10
1336.649612082622
 20
-738.8104844353246
 30
0.0
 10
1338.983099668463
 20
-745.034931517527
 30
0.0
 10
1341.623779776824
 20
-751.1404477310066
 30
0.0
 10
1344.596764551797
 20
-757.0704338164435
 30
0.0
 10
1347.938118070979
 20
-762.7814944453338
 30
0.0
 10
1351.655157601485
 20
-768.1751164072724
 30
0.0
 10
1355.626784718049
 20
-773.005851659002
 30
0.0
 10
1359.805318406795
 20
-777.242513481068
 30
0.0
 10
1364.14829406885
 20
-780.8826370560954
 30
0.0
 10
1368.801826077626
 20
-784.028017712595
 30
0.0
 10
1373.511427463621
 20
-786.5040244125435
 30
0.0
 10
1378.196448769485
 20
-788.3504757401864
 30
0.0
 10
1382.799685082851
 20
-789.6405059901341
 30
0.0
 10
1387.492041983916
 20
-790.4388543333733
 30
0.0
 10
1392.236170445265
 20
-790.7469527378599
 30
0.0
 10
1396.959326880946
 20
-790.5656790627728
 30
0.0
 10
1401.64588437879
 20
-789.9069749896141
 30
0.0
 10
1406.255460884051
 20
-788.7872028079672
 30
0.0
 10
1410.829064892572
 20
-787.1391464366449
 30
0.0
 10
1414.241868057221
 20
-785.6255278731927
 30
0.0
 10
1416.050512493394
 20
-784.4931020124881
 30
0.0
 10
1416.42729504624
 20
-784.2571914608217
 30
0.0
  0
SPLINE
  5
C4
330
1F
100
AcDbEntity
  8
0
  6
Continuous
 62
     7
370
    25
100
AcDbSpline
210
0.0
220
0.0
230
1.0
 70
     8
 71
     3
 72
    17
 73
    13
 74
     0
 42
0.00000001
 43
0.00000001
 40
0.0
 40
0.0
 40
0.0
 40
0.0
 40
0.0113526519354932
 40
0.1198866402982509
 40
0.2291654970480665
 40
0.3408551714521156
 40
0.4534160804072971
 40
0.5604485912321597
 40
0.6692508438257511
 40
0.7789791704483345
 40
0.890645096624498
 40
1.0
 40
1.0
 40
1.0
 40
1.0
 10
1336.474498753801
 20
-645.7561735859882
 30
0.0
 10
1336.392781373156
 20
-645.7940298163661
 30
0.0
 10
1335.5298268604
 20
-646.1938003986193
 30
0.0
 10
1334.128825054239
 20
-647.4115871909638
 30
0.0
 10
1332.2774754235
 20
-649.492199833998
 30
0.0
 10
1330.69227930288
 20
-652.1769450384163
 30
0.0
 10
1329.36661539412
 20
-655.3640854817538
 30
0.0
 10
1328.298530454264
 20
-659.0401333715544
 30
0.0
 10
1327.472151021487
 20
-663.1698885196389
 30
0.0
 10
1326.877218302496
 20
-667.8463333477948
 30
0.0
 10
1326.504909388862
 20
-672.9616613432803
 30
0.0
 10
1326.459061008386
 20
-676.7224784167573
 30
0.0
 10
1326.43637651649
 20
-678.5832251550501
 30
0.0
  0
LWPOLYLINE
  5
C5
330
1F
100
AcDbEntity
  8
0
  6
Continuous
 62
     7
370
    25
100
AcDbPolyline
 90
      142
 70
   128
 43
0.0
 10
1179.7117194203
 20
-593.8808835534
 10
1179.5871237336
 20
-587.4963689116
 10
1179.2135840468
 20
-581.2683852505
 10
1178.5918419883
 20
-575.209297655
 10
1177.7231319694
 20
-569.3311358828
 10
1176.6091787335
 20
-563.64557048
 10
1175.2521939316
 20
-558.1638896104
 10
1173.6548717314
 20
-552.8969766439
 10
1171.8203834683
 20
-547.8552885487
 10
1169.7523713489
 20
-543.0488351298
 10
1167.4549412199
 20
-538.4871591557
 10
1164.9326544161
 20
-534.1793174117
 10
1162.1905187045
 20
-530.1338627187
 10
1159.2339783417
 20
-526.3588269528
 10
1156.068903265
 20
-522.8617050978
 10
1152.7015774379
 20
-519.6494403657
 10
1149.1386863743
 20
-516.7284104106
 10
1145.3873038644
 20
-514.1044146671
 10
1141.454877931
 20
-511.782662836
 10
1137.3492160418
 20
-509.7677645405
 10
1133.0784696084
 20
-508.0637201747
 10
1128.6511178027
 20
-506.673912961
 10
1124.0759507217
 20
-505.6011022329
 10
1119.3620519362
 20
-504.8474179569
 10
1114.5187804559
 20
-504.4143565032
 10
1109.5557521481
 20
-504.3027776754
 10
1104.4828206459
 20
-504.5129030029
 10
1099.3100577854
 20
-505.0443153013
 10
1094.0477336084
 20
-505.8959595006
 10
1088.7062959725
 20
-507.0661447401
 10
1083.2963498076
 20
-508.5525477254
 10
1077.828636061
 20
-510.3522173409
 10
1072.3140103724
 20
-512.4615805092
 10
1066.7634215206
 20
-514.876449285
 10
1061.1878896859
 20
-517.5920291697
 10
1055.5984845706
 20
-520.602928631
 10
1050.0063034214
 20
-523.9031698067
 10
1044.4224489962
 20
-527.4862003734
 10
1038.858007521
 20
-531.3449065555
 10
1033.3240266795
 20
-535.4716272492
 10
1027.8314936783
 20
-539.8581692324
 10
1022.3913134332
 20
-544.4958234321
 10
1017.0142869186
 20
-549.3753822152
 10
1011.7110897228
 20
-554.4871576693
 10
1006.4922508532
 20
-559.8210008376
 10
1001.368131831
 20
-565.366321868
 10
996.3489061204
 20
-571.112111039
 10
991.4445389294
 20
-577.0469606181
 10
986.664767425
 20
-583.1590875107
 10
982.0190814012
 20
-589.4363566547
 10
977.5167044376
 20
-595.8663051132
 10
973.1665755867
 20
-602.4361668188
 10
968.9773316269
 20
-609.1328979192
 10
964.9572899142
 20
-615.9432026747
 10
961.1144318693
 20
-622.8535598555
 10
957.4563871312
 20
-629.8502495871
 10
953.9904184091
 20
-636.9193805898
 10
950.723407063
 20
-644.0469177582
 10
947.6618394415
 20
-651.2187100271
 10
944.8117940039
 20
-658.4205184668
 10
942.1789292514
 20
-665.6380445532
 10
939.7684724934
 20
-672.8569585564
 10
937.5852094686
 20
-680.0629279908
 10
935.6334748437
 20
-687.2416460712
 10
933.9171436071
 20
-694.3788601173
 10
932.4396233756
 20
-701.4603998513
 10
931.2038476288
 20
-708.4722055315
 10
930.2122698851
 20
-715.4003558667
 10
929.4668588304
 20
-722.2310956559
 10
928.9690944093
 20
-728.9508630973
 10
928.7199648869
 20
-735.5463167149
 10
928.7199648869
 20
-742.0043618459
 10
928.9690944093
 20
-748.3121766394
 10
929.4668588304
 20
-754.4572375132
 10
930.2122698851
 20
-760.4273440177
 10
931.2038476288
 20
-766.2106430589
 10
932.4396233756
 20
-771.7956524321
 10
933.9171436071
 20
-777.171283618
 10
935.6334748437
 20
-782.3268637986
 10
937.5852094686
 20
-787.2521570465
 10
939.7684724934
 20
-791.9373846481
 10
942.1789292514
 20
-796.3732445175
 10
944.8117940039
 20
-800.5509296655
 10
947.6618394415
 20
-804.4621456851
 10
950.723407063
 20
-808.0991272189
 10
953.9904184091
 20
-811.4546533766
 10
957.4563871312
 20
-814.5220620717
 10
961.1144318693
 20
-817.2952632482
 10
964.9572899142
 20
-819.7687509718
 10
968.9773316269
 20
-821.9376143616
 10
973.1665755867
 20
-823.7975473401
 10
977.5167044376
 20
-825.3448571826
 10
982.0190814012
 20
-826.5764718486
 10
986.664767425
 20
-827.4899460811
 10
991.4445389294
 20
-828.0834662616
 10
996.3489061204
 20
-828.3558540108
 10
1001.368131831
 20
-828.306568528
 10
1006.4922508532
 20
-827.9357076649
 10
1011.7110897228
 20
-827.2440077315
 10
1017.0142869186
 20
-826.2328420339
 10
1022.3913134332
 20
-824.9042181481
 10
1027.8314936783
 20
-823.2607739338
 10
1033.3240266795
 20
-821.3057722973
 10
1038.858007521
 20
-819.0430947135
 10
1044.4224489962
 20
-816.4772335192
 10
1050.0063034214
 20
-813.6132829944
 10
1055.5984845706
 20
-810.4569292476
 10
1061.1878896859
 20
-807.0144389272
 10
1066.7634215206
 20
-803.2926467789
 10
1072.3140103724
 20
-799.2989420766
 10
1077.828636061
 20
-795.0412539513
 10
1083.2963498076
 20
-790.5280356487
 10
1088.7062959725
 20
-785.7682477459
 10
1094.0477336084
 20
-780.7713403612
 10
1099.3100577854
 20
-775.5472343917
 10
1104.4828206459
 20
-770.1063018163
 10
1109.5557521481
 20
-764.4593451029
 10
1114.5187804559
 20
-758.6175757614
 10
1119.3620519362
 20
-752.592592084
 10
1124.0759507217
 20
-746.3963561183
 10
1128.6511178027
 20
-740.041169917
 10
1133.0784696084
 20
-733.5396511142
 10
1137.3492160418
 20
-726.9047078736
 10
1141.454877931
 20
-720.1495132609
 10
1145.3873038644
 20
-713.2874790897
 10
1149.1386863743
 20
-706.3322292936
 10
1152.7015774379
 20
-699.2975728774
 10
1156.068903265
 20
-692.1974765001
 10
1159.2339783417
 20
-685.0460367459
 10
1162.1905187045
 20
-677.8574521366
 10
1164.9326544161
 20
-670.6459949413
 10
1167.4549412199
 20
-663.4259828409
 10
1169.7523713489
 20
-656.211750501
 10
1171.8203834683
 20
-649.0176211123
 10
1173.6548717314
 20
-641.8578779526
 10
1175.2521939316
 20
-634.7467360292
 10
1176.6091787335
 20
-627.6983138563
 10
1177.7231319694
 20
-620.7266054236
 10
1178.5918419883
 20
-613.8454524129
 10
1179.2135840468
 20
-607.0685167166
 10
1179.5871237336
 20
-600.409253313
 10
1179.7117194203
 20
-593.8808835534
  0
LWPOLYLINE
  5
C6
330
1F
100
AcDbEntity
  8
0
  6
Continuous
 62
     7
370
    25
100
AcDbPolyline
 90
       19
 70
   128
 43
0.0
 10
1586.2981186025
 20
-828.5982157025
 10
1586.1735229159
 20
-822.2137010607
 10
1585.799983229
 20
-815.9857173995
 10
1585.1782411705
 20
-809.9266298041
 10
1584.3095311517
 20
-804.0484680319
 10
1583.1955779158
 20
-798.362902629
 10
1581.8385931139
 20
-792.8812217594
 10
1580.2412709137
 20
-787.6143087929
 10
1578.4067826506
 20
-782.5726206977
 10
1576.3387705312
 20
-777.7661672789
 10
1574.0413404022
 20
-773.2044913047
 10
1571.5190535984
 20
-768.8966495607
 10
1568.7769178868
 20
-764.8511948678
 10
1565.820377524
 20
-761.0761591018
 10
1562.6553024473
 20
-757.5790372469
 10
1559.2879766202
 20
-754.3667725147
 10
1555.7250855565
 20
-751.4457425596
 10
1551.9737030466
 20
-748.8217468162
 10
1549.5294524634
 20
-747.3307625542
  0
LWPOLYLINE
  5
C7
330
1F
100
AcDbEntity
  8
0
  6
Continuous
 62
     7
370
    25
100
AcDbPolyline
 90
       54
 70
   128
 43
0.0
 10
1372.0438774205
 20
-1054.7781086993
 10
1375.5637308092
 20
-1056.6549465106
 10
1379.752974769
 20
-1058.5148794892
 10
1384.1031036198
 20
-1060.0621893316
 10
1388.6054805835
 20
-1061.2938039976
 10
1393.2511666073
 20
-1062.2072782301
 10
1398.0309381116
 20
-1062.8007984106
 10
1402.9353053027
 20
-1063.0731861598
 10
1407.9545310133
 20
-1063.023900677
 10
1413.0786500354
 20
-1062.6530398139
 10
1418.2974889051
 20
-1061.9613398805
 10
1423.6006861008
 20
-1060.9501741829
 10
1428.9777126155
 20
-1059.6215502971
 10
1434.4178928605
 20
-1057.9781060828
 10
1439.9104258618
 20
-1056.0231044463
 10
1445.4444067033
 20
-1053.7604268625
 10
1451.0088481784
 20
-1051.1945656682
 10
1456.5927026037
 20
-1048.3306151434
 10
1462.1848837529
 20
-1045.1742613966
 10
1467.7742888681
 20
-1041.7317710762
 10
1473.3498207028
 20
-1038.0099789279
 10
1478.9004095547
 20
-1034.0162742256
 10
1484.4150352433
 20
-1029.7585861003
 10
1489.8827489898
 20
-1025.2453677977
 10
1495.2926951547
 20
-1020.4855798949
 10
1500.6341327907
 20
-1015.4886725102
 10
1505.8964569677
 20
-1010.2645665408
 10
1511.0692198282
 20
-1004.8236339653
 10
1516.1421513303
 20
-999.1766772519
 10
1521.1051796382
 20
-993.3349079104
 10
1525.9484511185
 20
-987.3099242331
 10
1530.662349904
 20
-981.1136882673
 10
1535.2375169849
 20
-974.758502066
 10
1539.6648687907
 20
-968.2569832632
 10
1543.935615224
 20
-961.6220400226
 10
1548.0412771132
 20
-954.8668454099
 10
1551.9737030466
 20
-948.0048112387
 10
1555.7250855565
 20
-941.0495614426
 10
1559.2879766202
 20
-934.0149050264
 10
1562.6553024473
 20
-926.9148086491
 10
1565.820377524
 20
-919.763368895
 10
1568.7769178868
 20
-912.5747842856
 10
1571.5190535984
 20
-905.3633270903
 10
1574.0413404022
 20
-898.1433149899
 10
1576.3387705312
 20
-890.9290826501
 10
1578.4067826506
 20
-883.7349532613
 10
1580.2412709137
 20
-876.5752101016
 10
1581.8385931139
 20
-869.4640681783
 10
1583.1955779158
 20
-862.4156460054
 10
1584.3095311517
 20
-855.4439375727
 10
1585.1782411705
 20
-848.562784562
 10
1585.799983229
 20
-841.7858488656
 10
1586.1735229159
 20
-835.1265854621
 10
1586.2981186025
 20
-828.5982157025
  0
LWPOLYLINE
  5
C8
330
1F
100
AcDbEntity
  8
0
  6
Continuous
 62
     7
370
    25
100
AcDbPolyline
 90
      129
 70
   128
 43
0.0
 10
1156.9428810661
 20
-607.0250541538
 10
1156.8191230863
 20
-601.2749433854
 10
1156.448147291
 20
-595.6815730595
 10
1155.8308473931
 20
-590.2584180951
 10
1154.9687105223
 20
-585.0185433474
 10
1153.8638136418
 20
-579.9745721338
 10
1152.518818545
 20
-575.1386558226
 10
1150.9369654428
 20
-570.5224445599
 10
1149.1220651579
 20
-566.1370592029
 10
1147.0784899442
 20
-561.993064529
 10
1144.8111629532
 20
-558.1004437844
 10
1142.3255463742
 20
-554.4685746334
 10
1139.6276282754
 20
-551.106206567
 10
1136.7239081778
 20
-548.0214398242
 10
1133.6213813973
 20
-545.2217058784
 10
1130.3275221929
 20
-542.7137495339
 10
1126.8502657597
 20
-540.5036126771
 10
1123.1979891131
 20
-538.5966197214
 10
1119.3794909075
 20
-536.9973647799
 10
1115.4039702394
 20
-535.7097005976
 10
1111.2810044865
 20
-534.7367292705
 10
1107.0205262343
 20
-534.0807947717
 10
1102.6327993481
 20
-533.7434773049
 10
1098.1283942463
 20
-533.7255894973
 10
1093.5181624353
 20
-534.0271744424
 10
1088.8132103674
 20
-534.6475055954
 10
1084.0248726842
 20
-535.5850885244
 10
1079.1646849106
 20
-536.8376645099
 10
1074.2443556646
 20
-538.4022159867
 10
1069.2757384504
 20
-540.2749738133
 10
1064.270803102
 20
-542.451426352
 10
1059.2416069471
 20
-544.9263303379
 10
1054.2002657597
 20
-547.6937235107
 10
1049.1589245723
 20
-550.7469389778
 10
1044.1297284174
 20
-554.0786212756
 10
1039.124793069
 20
-557.6807440897
 10
1034.1561758548
 20
-561.5446295908
 10
1029.2358466088
 20
-565.6609693402
 10
1024.3756588352
 20
-570.019846715
 10
1019.587321152
 20
-574.6107607977
 10
1014.882369084
 20
-579.4226516741
 10
1010.2721372731
 20
-584.4439270778
 10
1005.7677321713
 20
-589.6624903164
 10
1001.3800052851
 20
-595.065769414
 10
997.1195270328
 20
-600.640747398
 10
992.9965612799
 20
-606.3739936582
 10
989.0210406119
 20
-612.251696302
 10
985.2025424062
 20
-618.2596954291
 10
981.5502657597
 20
-624.3835172432
 10
978.0730093265
 20
-630.6084089212
 10
974.779150122
 20
-636.9193741539
 10
971.6766233415
 20
-643.3012092733
 10
968.7729032439
 20
-649.7385398794
 10
966.0749851451
 20
-656.2158578792
 10
963.5893685662
 20
-662.7175588461
 10
961.3220415752
 20
-669.2279796131
 10
959.2784663614
 20
-675.7314360062
 10
957.4635660765
 20
-682.2122606295
 10
955.8817129744
 20
-688.6548406086
 10
954.5367178775
 20
-695.0436552042
 10
953.431820997
 20
-701.3633132023
 10
952.5696841262
 20
-707.5985899933
 10
951.9523842284
 20
-713.7344642491
 10
951.581408433
 20
-719.7561541113
 10
951.4576504533
 20
-725.6491528016
 10
951.581408433
 20
-731.39926357
 10
951.9523842284
 20
-736.9926338959
 10
952.5696841262
 20
-742.4157888604
 10
953.431820997
 20
-747.655663608
 10
954.5367178775
 20
-752.6996348216
 10
955.8817129744
 20
-757.5355511328
 10
957.4635660765
 20
-762.1517623955
 10
959.2784663614
 20
-766.5371477525
 10
961.3220415752
 20
-770.6811424264
 10
963.5893685662
 20
-774.573763171
 10
966.0749851451
 20
-778.205632322
 10
968.7729032439
 20
-781.5680003884
 10
971.6766233415
 20
-784.6527671312
 10
974.779150122
 20
-787.452501077
 10
978.0730093265
 20
-789.9604574215
 10
981.5502657597
 20
-792.1705942783
 10
985.2025424063
 20
-794.077587234
 10
989.0210406119
 20
-795.6768421756
 10
992.9965612799
 20
-796.9645063578
 10
997.1195270328
 20
-797.9374776849
 10
1001.3800052851
 20
-798.5934121837
 10
1005.7677321713
 20
-798.9307296505
 10
1010.2721372731
 20
-798.9486174581
 10
1014.882369084
 20
-798.6470325131
 10
1019.587321152
 20
-798.02670136
 10
1024.3756588352
 20
-797.089118431
 10
1029.2358466088
 20
-795.8365424455
 10
1034.1561758548
 20
-794.2719909687
 10
1039.124793069
 20
-792.3992331421
 10
1044.1297284174
 20
-790.2227806035
 10
1049.1589245723
 20
-787.7478766175
 10
1054.2002657597
 20
-784.9804834447
 10
1059.2416069471
 20
-781.9272679777
 10
1064.270803102
 20
-778.5955856798
 10
1069.2757384504
 20
-774.9934628657
 10
1074.2443556646
 20
-771.1295773646
 10
1079.1646849106
 20
-767.0132376152
 10
1084.0248726842
 20
-762.6543602404
 10
1088.8132103674
 20
-758.0634461578
 10
1093.5181624353
 20
-753.2515552813
 10
1098.1283942463
 20
-748.2302798776
 10
1102.6327993481
 20
-743.011716639
 10
1107.0205262343
 20
-737.6084375414
 10
1111.2810044865
 20
-732.0334595574
 10
1115.4039702394
 20
-726.3002132972
 10
1119.3794909075
 20
-720.4225106534
 10
1123.1979891131
 20
-714.4145115264
 10
1126.8502657597
 20
-708.2906897123
 10
1130.3275221929
 20
-702.0657980342
 10
1133.6213813973
 20
-695.7548328015
 10
1136.7239081778
 20
-689.3729976822
 10
1139.6276282754
 20
-682.935667076
 10
1142.3255463742
 20
-676.4583490762
 10
1144.8111629532
 20
-669.9566481093
 10
1147.0784899442
 20
-663.4462273423
 10
1149.1220651579
 20
-656.9427709492
 10
1150.9369654428
 20
-650.461946326
 10
1152.518818545
 20
-644.0193663468
 10
1153.8638136418
 20
-637.6305517512
 10
1154.9687105223
 20
-631.3108937531
 10
1155.8308473931
 20
-625.0756169622
 10
1156.448147291
 20
-618.9397427063
 10
1156.8191230863
 20
-612.9180528441
 10
1156.9428810661
 20
-607.0250541538
  0
LWPOLYLINE
  5
C9
330
1F
100
AcDbEntity
  8
0
  6
Continuous
 62
     7
370
    25
100
AcDbPolyline
 90
       86
 70
   128
 43
0.0
 10
1527.1839916954
 20
-681.3998331408
 10
1527.0577052098
 20
-677.3830738851
 10
1526.6795354863
 20
-673.2424455029
 10
1526.0515479565
 20
-669.0005626706
 10
1525.1771724707
 20
-664.6805930814
 10
1524.0611845646
 20
-660.306130911
 10
1522.7096793771
 20
-655.9010679549
 10
1521.1300383609
 20
-651.4894631394
 10
1519.3308889673
 20
-647.0954111202
 10
1517.3220575266
 20
-642.7429106857
 10
1515.1145155795
 20
-638.455733684
 10
1512.7203199545
 20
-634.2572951891
 10
1510.1525469179
 20
-630.1705256162
 10
1507.4252207557
 20
-626.2177454835
 10
1504.5532371774
 20
-622.4205435055
 10
1501.5522819616
 20
-618.7996586825
 10
1498.438745285
 20
-615.3748670318
 10
1495.2296322052
 20
-612.1648735779
 10
1491.9424697851
 20
-609.1872101918
 10
1488.5952113657
 20
-606.4581398384
 10
1485.2061385121
 20
-603.9925677536
 10
1481.7937611647
 20
-601.8039600371
 10
1478.3767165454
 20
-599.9042701053
 10
1474.973667367
 20
-598.3038734058
 10
1471.6031999039
 20
-597.0115107505
 10
1468.2837224807
 20
-596.0342405761
 10
1465.033364932
 20
-595.3774003933
 10
1461.8698795836
 20
-595.0445776355
 10
1458.8105442954
 20
-595.0375900651
 10
1455.8720680959
 20
-595.3564758458
 10
1453.0704999231
 20
-595.999493334
 10
1450.4211409708
 20
-596.9631305913
 10
1447.938461119
 20
-598.2421245651
 10
1445.6360199041
 20
-599.8294898338
 10
1443.5263924615
 20
-601.7165567588
 10
1441.6211008448
 20
-603.8930188349
 10
1439.9305510961
 20
-606.346988981
 10
1438.4639764119
 20
-609.0650644631
 10
1437.2293867146
 20
-612.0324000955
 10
1436.2335249049
 20
-615.23278932
 10
1435.4818300348
 20
-618.6487527203
 10
1434.9784076009
 20
-622.2616334891
 10
1434.726007122
 20
-626.0516993243
 10
1434.726007122
 20
-629.9982502006
 10
1434.9784076009
 20
-634.0797314258
 10
1435.4818300348
 20
-638.2738513647
 10
1436.2335249049
 20
-642.5577031886
 10
1437.2293867146
 20
-646.9078899844
 10
1438.4639764119
 20
-651.3006525402
 10
1439.9305510961
 20
-655.7119991104
 10
1441.6211008448
 20
-660.1178364497
 10
1443.5263924615
 20
-664.4941014023
 10
1445.6360199041
 20
-668.8168923266
 10
1447.938461119
 20
-673.0625996377
 10
1450.4211409708
 20
-677.2080347545
 10
1453.0704999231
 20
-681.2305567479
 10
1455.8720680959
 20
-685.1081959976
 10
1458.8105442954
 20
-688.8197741828
 10
1461.8698795836
 20
-692.3450199504
 10
1465.033364932
 20
-695.6646796306
 10
1468.2837224808
 20
-698.7606223933
 10
1471.6031999039
 20
-701.6159392728
 10
1474.973667367
 20
-704.2150355183
 10
1478.3767165454
 20
-706.5437157676
 10
1481.7937611647
 20
-708.5892615765
 10
1485.2061385121
 20
-710.3405008832
 10
1488.5952113657
 20
-711.787869026
 10
1491.9424697851
 20
-712.9234609818
 10
1495.2296322052
 20
-713.7410745413
 10
1498.438745285
 20
-714.2362441827
 10
1501.5522819616
 20
-714.4062654612
 10
1504.5532371774
 20
-714.2502097794
 10
1507.4252207557
 20
-713.7689294594
 10
1510.1525469179
 20
-712.9650530874
 10
1512.7203199545
 20
-711.8429711574
 10
1515.1145155795
 20
-710.4088120917
 10
1517.3220575266
 20
-708.67040877
 10
1519.3308889673
 20
-706.6372557482
 10
1521.1300383609
 20
-704.3204574032
 10
1522.7096793771
 20
-701.7326672841
 10
1524.0611845646
 20
-698.8880190031
 10
1525.1771724707
 20
-695.8020490428
 10
1526.0515479565
 20
-692.4916119009
 10
1526.6795354863
 20
-688.9747880372
 10
1527.0577052098
 20
-685.270785124
 10
1527.1839916954
 20
-681.3998331408
  0
LWPOLYLINE
  5
CA
330
1F
100
AcDbEntity
  8
0
  6
Continuous
 62
     7
370
    25
100
AcDbPolyline
 90
       95
 70
   128
 43
0.0
 10
1537.5077507007
 20
-687.3596123571
 10
1537.3814262792
 20
-682.92357391
 10
1537.0030172102
 20
-678.3614968148
 10
1536.3742135605
 20
-673.6937564155
 10
1535.4978237199
 20
-668.9411999737
 10
1534.377761858
 20
-664.1250535602
 10
1533.0190304432
 20
-659.266827254
 10
1531.4276978996
 20
-654.3882190732
 10
1529.6108715048
 20
-649.5110180662
 10
1527.5766656465
 20
-644.6570069966
 10
1525.3341655819
 20
-639.8478650562
 10
1522.8933868605
 20
-635.1050710404
 10
1520.2652305928
 20
-630.4498074186
 10
1517.4614347626
 20
-625.9028657281
 10
1514.4945218026
 20
-621.4845537144
 10
1511.3777426664
 20
-617.2146046315
 10
1508.1250176463
 20
-613.1120891085
 10
1504.7508742018
 20
-609.1953299756
 10
1501.2703820765
 20
-605.48182043
 10
1497.6990859933
 20
-601.9881459068
 10
1494.0529362273
 20
-598.7299100044
 10
1490.3482173686
 20
-595.7216647953
 10
1486.6014755909
 20
-592.976845833
 10
1482.8294447526
 20
-590.5077121452
 10
1479.0489716589
 20
-588.3252914824
 10
1475.2769408206
 20
-586.439331065
 10
1471.5301990429
 20
-584.85825405
 10
1467.8254801842
 20
-583.5891219114
 10
1464.1793304182
 20
-582.6376029012
 10
1460.608034335
 20
-582.0079467343
 10
1457.1275422097
 20
-581.7029656081
 10
1453.7533987652
 20
-581.7240216422
 10
1450.5006737451
 20
-582.0710207954
 10
1447.3838946089
 20
-582.7424132851
 10
1444.4169816489
 20
-583.7352005096
 10
1441.6131858187
 20
-585.0449484401
 10
1438.985029551
 20
-586.6658074243
 10
1436.5442508296
 20
-588.5905383126
 10
1434.301750765
 20
-590.8105447896
 10
1432.2675449067
 20
-593.3159117675
 10
1430.4507185119
 20
-596.0954496691
 10
1428.8593859683
 20
-599.1367444035
 10
1427.5006545535
 20
-602.42621281
 10
1426.3805926916
 20
-605.9491633243
 10
1425.504202851
 20
-609.6898615941
 10
1424.8753992013
 20
-613.6316007529
 10
1424.4969901323
 20
-617.7567760367
 10
1424.3706657108
 20
-622.0469634113
 10
1424.4969901323
 20
-626.4830018585
 10
1424.8753992013
 20
-631.0450789536
 10
1425.504202851
 20
-635.712819353
 10
1426.3805926916
 20
-640.4653757948
 10
1427.5006545535
 20
-645.2815222083
 10
1428.8593859683
 20
-650.1397485145
 10
1430.4507185119
 20
-655.0183566953
 10
1432.2675449067
 20
-659.8955577023
 10
1434.301750765
 20
-664.7495687719
 10
1436.5442508296
 20
-669.5587107123
 10
1438.985029551
 20
-674.3015047281
 10
1441.6131858187
 20
-678.9567683499
 10
1444.4169816489
 20
-683.5037100404
 10
1447.3838946089
 20
-687.9220220541
 10
1450.5006737451
 20
-692.191971137
 10
1453.7533987652
 20
-696.29448666
 10
1457.1275422097
 20
-700.2112457928
 10
1460.608034335
 20
-703.9247553384
 10
1464.1793304182
 20
-707.4184298617
 10
1467.8254801842
 20
-710.6766657641
 10
1471.5301990429
 20
-713.6849109732
 10
1475.2769408206
 20
-716.4297299355
 10
1479.0489716589
 20
-718.8988636233
 10
1482.8294447526
 20
-721.0812842861
 10
1486.6014755909
 20
-722.9672447035
 10
1490.3482173686
 20
-724.5483217184
 10
1494.0529362273
 20
-725.8174538571
 10
1497.6990859933
 20
-726.7689728673
 10
1501.2703820765
 20
-727.3986290342
 10
1504.7508742018
 20
-727.7036101604
 10
1508.1250176463
 20
-727.6825541263
 10
1511.3777426664
 20
-727.3355549731
 10
1514.4945218026
 20
-726.6641624833
 10
1517.4614347626
 20
-725.6713752589
 10
1520.2652305928
 20
-724.3616273284
 10
1522.8933868605
 20
-722.7407683442
 10
1525.3341655819
 20
-720.8160374559
 10
1527.5766656465
 20
-718.5960309788
 10
1529.6108715048
 20
-716.090664001
 10
1531.4276978996
 20
-713.3111260993
 10
1533.0190304432
 20
-710.269831365
 10
1534.377761858
 20
-706.9803629584
 10
1535.4978237199
 20
-703.4574124442
 10
1536.3742135605
 20
-699.7167141744
 10
1537.0030172102
 20
-695.7749750156
 10
1537.3814262792
 20
-691.6497997318
 10
1537.5077507007
 20
-687.3596123571
  0
ENDSEC
  0
SECTION
  2
OBJECTS
  0
DICTIONARY
  5
C
330
0
100
AcDbDictionary
281
     1
  3
ACAD_GROUP
350
D
  3
ACAD_LAYOUT
350
1A
  3
ACAD_MLINESTYLE
350
17
  3
ACAD_PLOTSETTINGS
350
19
  3
ACAD_PLOTSTYLENAME
350
E
  3
ACAD_SCALELIST
350
47
  3
DWGPROPS
350
CB
  0
DICTIONARY
  5
D
102
{ACAD_REACTORS
330
C
102
}
330
C
100
AcDbDictionary
281
     1
  0
DICTIONARY
  5
1A
102
{ACAD_REACTORS
330
C
102
}
330
C
100
AcDbDictionary
281
     1
  3
Layout1
350
1E
  3
Layout2
350
26
  3
Model
350
22
  0
DICTIONARY
  5
17
102
{ACAD_REACTORS
330
C
102
}
330
C
100
AcDbDictionary
281
     1
  3
Standard
350
18
  0
DICTIONARY
  5
19
102
{ACAD_REACTORS
330
C
102
}
330
C
100
AcDbDictionary
281
     1
  0
ACDBDICTIONARYWDFLT
  5
E
102
{ACAD_REACTORS
330
C
102
}
330
C
100
AcDbDictionary
281
     1
  3
Normal
350
F
100
AcDbDictionaryWithDefault
340
F
  0
DICTIONARY
  5
47
102
{ACAD_REACTORS
330
C
102
}
330
C
100
AcDbDictionary
281
     1
  3
A0
350
48
  3
A1
350
49
  3
A2
350
4A
  3
A3
350
4B
  3
A4
350
4C
  3
A5
350
4D
  3
A6
350
4E
  3
A7
350
4F
  3
A8
350
50
  3
A9
350
51
  3
B0
350
52
  3
B1
350
53
  3
B2
350
54
  3
B3
350
55
  3
B4
350
56
  3
B5
350
57
  3
B6
350
58
  3
B7
350
59
  3
B8
350
5A
  3
B9
350
5B
  3
C0
350
5C
  3
C1
350
5D
  3
C2
350
5E
  3
C3
350
5F
  3
C4
350
60
  3
C5
350
61
  3
C6
350
62
  3
C7
350
63
  3
C8
350
64
  3
C9
350
65
  3
D0
350
66
  3
D1
350
67
  3
D2
350
68
  0
XRECORD
  5
CB
102
{ACAD_REACTORS
330
C
102
}
330
C
100
AcDbXrecord
280
     1
  1
DWGPROPS COOKIE
  2

  3

  4

  6

  7

  8
b.kav
  9

300
=
301
=
302
=
303
=
304
=
305
=
306
=
307
=
308
=
309
=
 40
0.0
 41
2459921.394883819
 42
2459921.394884005
  1

 90
        0
  0
LAYOUT
  5
1E
102
{ACAD_REACTORS
330
1A
102
}
330
1A
100
AcDbPlotSettings
  1

  2
none_device
  4

  6

 40
0.0
 41
0.0
 42
0.0
 43
0.0
 44
0.0
 45
0.0
 46
0.0
 47
0.0
 48
0.0
 49
0.0
140
0.0
141
0.0
142
1.0
143
1.0
 70
   688
 72
     1
 73
     0
 74
     5
  7

 75
    16
147
1.0
148
0.0
149
0.0
100
AcDbLayout
  1
Layout1
 70
     1
 71
     1
 10
0.0
 20
0.0
 11
420.0
 21
297.0
 12
0.0
 22
0.0
 32
0.0
 14
1.0000000000E+20
 24
1.0000000000E+20
 34
1.0000000000E+20
 15
-1.0000000000E+20
 25
-1.0000000000E+20
 35
-1.0000000000E+20
146
0.0
 13
0.0
 23
0.0
 33
0.0
 16
1.0
 26
0.0
 36
0.0
 17
0.0
 27
1.0
 37
0.0
 76
     0
330
1B
  0
LAYOUT
  5
26
102
{ACAD_REACTORS
330
1A
102
}
330
1A
100
AcDbPlotSettings
  1

  2
none_device
  4

  6

 40
0.0
 41
0.0
 42
0.0
 43
0.0
 44
0.0
 45
0.0
 46
0.0
 47
0.0
 48
0.0
 49
0.0
140
0.0
141
0.0
142
1.0
143
1.0
 70
   688
 72
     1
 73
     0
 74
     5
  7

 75
    16
147
1.0
148
0.0
149
0.0
100
AcDbLayout
  1
Layout2
 70
     1
 71
     2
 10
0.0
 20
0.0
 11
0.0
 21
0.0
 12
0.0
 22
0.0
 32
0.0
 14
0.0
 24
0.0
 34
0.0
 15
0.0
 25
0.0
 35
0.0
146
0.0
 13
0.0
 23
0.0
 33
0.0
 16
1.0
 26
0.0
 36
0.0
 17
0.0
 27
1.0
 37
0.0
 76
     0
330
23
  0
LAYOUT
  5
22
102
{ACAD_REACTORS
330
1A
102
}
330
1A
100
AcDbPlotSettings
  1

  2
none_device
  4
Letter_(8.50_x_11.00_Inches)
  6

 40
6.35
 41
6.35
 42
6.35000508
 43
6.35000508
 44
215.9
 45
279.4
 46
0.0
 47
0.0
 48
0.0
 49
0.0
140
0.0
141
0.0
142
1.0
143
1.0
 70
  1712
 72
     1
 73
     0
 74
     0
  7

 75
     0
147
1.0
148
0.0
149
0.0
100
AcDbLayout
  1
Model
 70
     1
 71
     0
 10
0.0
 20
0.0
 11
279.4
 21
215.9
 12
0.0
 22
0.0
 32
0.0
 14
0.0
 24
0.0
 34
0.0
 15
279.4
 25
215.9
 35
0.0
146
0.0
 13
0.0
 23
0.0
 33
0.0
 16
1.0
 26
0.0
 36
0.0
 17
0.0
 27
1.0
 37
0.0
 76
     0
330
1F
331
29
  0
MLINESTYLE
  5
18
102
{ACAD_REACTORS
330
17
102
}
330
17
100
AcDbMlineStyle
  2
Standard
 70
     0
  3

 62
   256
 51
90.0
 52
90.0
 71
     2
 49
0.5
 62
   256
  6
BYLAYER
 49
-0.5
 62
   256
  6
BYLAYER
  0
ACDBPLACEHOLDER
  5
F
102
{ACAD_REACTORS
330
E
102
}
330
E
  0
SCALE
  5
48
102
{ACAD_REACTORS
330
47
102
}
330
47
100
AcDbScale
 70
     0
300
1:1
140
1.0
141
1.0
290
     1
  0
SCALE
  5
49
102
{ACAD_REACTORS
330
47
102
}
330
47
100
AcDbScale
 70
     0
300
1:2
140
1.0
141
2.0
290
     0
  0
SCALE
  5
4A
102
{ACAD_REACTORS
330
47
102
}
330
47
100
AcDbScale
 70
     0
300
1:4
140
1.0
141
4.0
290
     0
  0
SCALE
  5
4B
102
{ACAD_REACTORS
330
47
102
}
330
47
100
AcDbScale
 70
     0
300
1:5
140
1.0
141
5.0
290
     0
  0
SCALE
  5
4C
102
{ACAD_REACTORS
330
47
102
}
330
47
100
AcDbScale
 70
     0
300
1:8
140
1.0
141
8.0
290
     0
  0
SCALE
  5
4D
102
{ACAD_REACTORS
330
47
102
}
330
47
100
AcDbScale
 70
     0
300
1:10
140
1.0
141
10.0
290
     0
  0
SCALE
  5
4E
102
{ACAD_REACTORS
330
47
102
}
330
47
100
AcDbScale
 70
     0
300
1:16
140
1.0
141
16.0
290
     0
  0
SCALE
  5
4F
102
{ACAD_REACTORS
330
47
102
}
330
47
100
AcDbScale
 70
     0
300
1:20
140
1.0
141
20.0
290
     0
  0
SCALE
  5
50
102
{ACAD_REACTORS
330
47
102
}
330
47
100
AcDbScale
 70
     0
300
1:30
140
1.0
141
30.0
290
     0
  0
SCALE
  5
51
102
{ACAD_REACTORS
330
47
102
}
330
47
100
AcDbScale
 70
     0
300
1:40
140
1.0
141
40.0
290
     0
  0
SCALE
  5
52
102
{ACAD_REACTORS
330
47
102
}
330
47
100
AcDbScale
 70
     0
300
1:50
140
1.0
141
50.0
290
     0
  0
SCALE
  5
53
102
{ACAD_REACTORS
330
47
102
}
330
47
100
AcDbScale
 70
     0
300
1:100
140
1.0
141
100.0
290
     0
  0
SCALE
  5
54
102
{ACAD_REACTORS
330
47
102
}
330
47
100
AcDbScale
 70
     0
300
2:1
140
2.0
141
1.0
290
     0
  0
SCALE
  5
55
102
{ACAD_REACTORS
330
47
102
}
330
47
100
AcDbScale
 70
     0
300
4:1
140
4.0
141
1.0
290
     0
  0
SCALE
  5
56
102
{ACAD_REACTORS
330
47
102
}
330
47
100
AcDbScale
 70
     0
300
8:1
140
8.0
141
1.0
290
     0
  0
SCALE
  5
57
102
{ACAD_REACTORS
330
47
102
}
330
47
100
AcDbScale
 70
     0
300
10:1
140
10.0
141
1.0
290
     0
  0
SCALE
  5
58
102
{ACAD_REACTORS
330
47
102
}
330
47
100
AcDbScale
 70
     0
300
100:1
140
100.0
141
1.0
290
     0
  0
SCALE
  5
59
102
{ACAD_REACTORS
330
47
102
}
330
47
100
AcDbScale
 70
     0
300
1/128" = 1'-0"
140
0.0078125
141
12.0
290
     0
  0
SCALE
  5
5A
102
{ACAD_REACTORS
330
47
102
}
330
47
100
AcDbScale
 70
     0
300
1/64" = 1'-0"
140
0.015625
141
12.0
290
     0
  0
SCALE
  5
5B
102
{ACAD_REACTORS
330
47
102
}
330
47
100
AcDbScale
 70
     0
300
1/32" = 1'-0"
140
0.03125
141
12.0
290
     0
  0
SCALE
  5
5C
102
{ACAD_REACTORS
330
47
102
}
330
47
100
AcDbScale
 70
     0
300
1/16" = 1'-0"
140
0.0625
141
12.0
290
     0
  0
SCALE
  5
5D
102
{ACAD_REACTORS
330
47
102
}
330
47
100
AcDbScale
 70
     0
300
3/32" = 1'-0"
140
0.09375
141
12.0
290
     0
  0
SCALE
  5
5E
102
{ACAD_REACTORS
330
47
102
}
330
47
100
AcDbScale
 70
     0
300
1/8" = 1'-0"
140
0.125
141
12.0
290
     0
  0
SCALE
  5
5F
102
{ACAD_REACTORS
330
47
102
}
330
47
100
AcDbScale
 70
     0
300
3/16" = 1'-0"
140
0.1875
141
12.0
290
     0
  0
SCALE
  5
60
102
{ACAD_REACTORS
330
47
102
}
330
47
100
AcDbScale
 70
     0
300
1/4" = 1'-0"
140
0.25
141
12.0
290
     0
  0
SCALE
  5
61
102
{ACAD_REACTORS
330
47
102
}
330
47
100
AcDbScale
 70
     0
300
3/8" = 1'-0"
140
0.375
141
12.0
290
     0
  0
SCALE
  5
62
102
{ACAD_REACTORS
330
47
102
}
330
47
100
AcDbScale
 70
     0
300
1/2" = 1'-0"
140
0.5
141
12.0
290
     0
  0
SCALE
  5
63
102
{ACAD_REACTORS
330
47
102
}
330
47
100
AcDbScale
 70
     0
300
3/4" = 1'-0"
140
0.75
141
12.0
290
     0
  0
SCALE
  5
64
102
{ACAD_REACTORS
330
47
102
}
330
47
100
AcDbScale
 70
     0
300
1" = 1'-0"
140
1.0
141
12.0
290
     0
  0
SCALE
  5
65
102
{ACAD_REACTORS
330
47
102
}
330
47
100
AcDbScale
 70
     0
300
1-1/2" = 1'-0"
140
1.5
141
12.0
290
     0
  0
SCALE
  5
66
102
{ACAD_REACTORS
330
47
102
}
330
47
100
AcDbScale
 70
     0
300
3" = 1'-0"
140
3.0
141
12.0
290
     0
  0
SCALE
  5
67
102
{ACAD_REACTORS
330
47
102
}
330
47
100
AcDbScale
 70
     0
300
6" = 1'-0"
140
6.0
141
12.0
290
     0
  0
SCALE
  5
68
102
{ACAD_REACTORS
330
47
102
}
330
47
100
AcDbScale
 70
     0
300
1'-0" = 1'-0"
140
12.0
141
12.0
290
     0
  0
ENDSEC
  0
EOF
